Guitar Australia

Lessons => Written Lessons => Topic started by: Nick on September 17, 2014, 01:54:51 PM

Title: Baby Animals - Early Warning (arpeggios)
Post by: Nick on September 17, 2014, 01:54:51 PM
This is the arpeggio refrain that occurs in the middle of the song and as the outro:

In standard tuning...

GTR 1
Code: [Select]
------------8----------------------------6---------------------------------8--------------------------------11----------------
-----9----------9--------------8-------------8-----------------9----------------9---------------11--------------11----------
-10----10----------10----8--------8--------------8-----10---------10--------------10---12--------12---------------12----
--------------------------------------------------------------------------------------------------------------------------------
--------------------------------------------------------------------------------------------------------------------------------
--------------------------------------------------------------------------------------------------------------------------------

GTR 2 (note: slide up to the A# on the D string at the start of each arpeggio)
Code: [Select]
--------------------------------------------------------------------------------------------------6-----------------------------
-----------9------------------------8---------------------------9--------------------------------------6-----------------------
-----6--------6-------------6-----------6-------------6-------------6----------------6-----------------------6---------------
--8----8----------8----8-------8------------8----8-------8--------------8----8-----------8----------------------------------
---------------------------------------------------------------------------------------------------------------------------------
---------------------------------------------------------------------------------------------------------------------------------